ISO-10303-21;
HEADER;
/* Generated by software containing ST-Developer
 * from STEP Tools, Inc. (www.steptools.com) 
 */

FILE_DESCRIPTION(
/* description */ ('Kolbenstange'),
/* implementation_level */ '2;1');

FILE_NAME(
/* name */ 
'O:\\Gasfedershop\\CAD\\CAD GF-Shop Stahl+VA\\Gasfedern_stp\\Gasfedern
_stp\\Gasdruckfeder 10-23 Hub 120 Edelstahl.stp',
/* time_stamp */ '2019-10-11T13:22:09+02:00',
/* author */ ('DLamberti'),
/* organization */ (''),
/* preprocessor_version */ 'ST-DEVELOPER v16.1',
/* originating_system */ 'Autodesk Inventor 2016',
/* authorisation */ '');

FILE_SCHEMA (('AUTOMOTIVE_DESIGN { 1 0 10303 214 3 1 1 }'));
ENDSEC;

DATA;
#10=MECHANICAL_DESIGN_GEOMETRIC_PRESENTATION_REPRESENTATION('',(#160,#155,
#158,#159,#157,#156,#165,#161,#163,#164,#162,#150,#149,#151,#153,#152,#154),
#335);
#11=ITEM_DEFINED_TRANSFORMATION($,$,#183,#212);
#12=ITEM_DEFINED_TRANSFORMATION($,$,#189,#213);
#13=ITEM_DEFINED_TRANSFORMATION($,$,#203,#214);
#14=ITEM_DEFINED_TRANSFORMATION($,$,#203,#215);
#15=(
REPRESENTATION_RELATIONSHIP($,$,#354,#357)
REPRESENTATION_RELATIONSHIP_WITH_TRANSFORMATION(#11)
SHAPE_REPRESENTATION_RELATIONSHIP()
);
#16=(
REPRESENTATION_RELATIONSHIP($,$,#355,#357)
REPRESENTATION_RELATIONSHIP_WITH_TRANSFORMATION(#12)
SHAPE_REPRESENTATION_RELATIONSHIP()
);
#17=(
REPRESENTATION_RELATIONSHIP($,$,#356,#357)
REPRESENTATION_RELATIONSHIP_WITH_TRANSFORMATION(#13)
SHAPE_REPRESENTATION_RELATIONSHIP()
);
#18=(
REPRESENTATION_RELATIONSHIP($,$,#356,#357)
REPRESENTATION_RELATIONSHIP_WITH_TRANSFORMATION(#14)
SHAPE_REPRESENTATION_RELATIONSHIP()
);
#19=CONTEXT_DEPENDENT_SHAPE_REPRESENTATION(#15,#350);
#20=CONTEXT_DEPENDENT_SHAPE_REPRESENTATION(#16,#351);
#21=CONTEXT_DEPENDENT_SHAPE_REPRESENTATION(#17,#352);
#22=CONTEXT_DEPENDENT_SHAPE_REPRESENTATION(#18,#353);
#23=NEXT_ASSEMBLY_USAGE_OCCURRENCE('Kolbenstange','Kolbenstange',
'Kolbenstange',#362,#359,'Kolbenstange');
#24=NEXT_ASSEMBLY_USAGE_OCCURRENCE('Zylinder','Zylinder','Zylinder',#362,
#360,'Zylinder');
#25=NEXT_ASSEMBLY_USAGE_OCCURRENCE('Gew-04:2','Gew-04:2','Gew-04:2',#362,
#361,'Gew-04:2');
#26=NEXT_ASSEMBLY_USAGE_OCCURRENCE('Gew-04:1','Gew-04:1','Gew-04:1',#362,
#361,'Gew-04:1');
#27=CONICAL_SURFACE('',#204,3.6,44.9999999999999);
#28=TOROIDAL_SURFACE('',#190,15.1498854776552,3.85800000000017);
#29=TOROIDAL_SURFACE('',#200,15.1498854776523,3.858);
#30=SHAPE_REPRESENTATION_RELATIONSHIP('SRR','None',#354,#33);
#31=SHAPE_REPRESENTATION_RELATIONSHIP('SRR','None',#355,#34);
#32=SHAPE_REPRESENTATION_RELATIONSHIP('SRR','None',#356,#35);
#33=ADVANCED_BREP_SHAPE_REPRESENTATION('',(#36),#331);
#34=ADVANCED_BREP_SHAPE_REPRESENTATION('',(#37),#332);
#35=ADVANCED_BREP_SHAPE_REPRESENTATION('',(#38),#333);
#36=MANIFOLD_SOLID_BREP('Volumenk\X\F6rper1',#180);
#37=MANIFOLD_SOLID_BREP('Volumenk\X\F6rper1',#181);
#38=MANIFOLD_SOLID_BREP('Volumenk\X\F6rper1',#182);
#39=PLANE('',#187);
#40=PLANE('',#188);
#41=PLANE('',#195);
#42=PLANE('',#196);
#43=PLANE('',#209);
#44=PLANE('',#210);
#45=FACE_BOUND('',#68,.T.);
#46=FACE_BOUND('',#72,.T.);
#47=FACE_BOUND('',#74,.T.);
#48=FACE_BOUND('',#78,.T.);
#49=FACE_BOUND('',#80,.T.);
#50=FACE_BOUND('',#82,.T.);
#51=FACE_BOUND('',#84,.T.);
#52=FACE_BOUND('',#86,.T.);
#53=FACE_OUTER_BOUND('',#67,.T.);
#54=FACE_OUTER_BOUND('',#69,.T.);
#55=FACE_OUTER_BOUND('',#70,.T.);
#56=FACE_OUTER_BOUND('',#71,.T.);
#57=FACE_OUTER_BOUND('',#73,.T.);
#58=FACE_OUTER_BOUND('',#75,.T.);
#59=FACE_OUTER_BOUND('',#76,.T.);
#60=FACE_OUTER_BOUND('',#77,.T.);
#61=FACE_OUTER_BOUND('',#79,.T.);
#62=FACE_OUTER_BOUND('',#81,.T.);
#63=FACE_OUTER_BOUND('',#83,.T.);
#64=FACE_OUTER_BOUND('',#85,.T.);
#65=FACE_OUTER_BOUND('',#87,.T.);
#66=FACE_OUTER_BOUND('',#88,.T.);
#67=EDGE_LOOP('',(#122));
#68=EDGE_LOOP('',(#123));
#69=EDGE_LOOP('',(#124));
#70=EDGE_LOOP('',(#125));
#71=EDGE_LOOP('',(#126));
#72=EDGE_LOOP('',(#127));
#73=EDGE_LOOP('',(#128));
#74=EDGE_LOOP('',(#129));
#75=EDGE_LOOP('',(#130));
#76=EDGE_LOOP('',(#131));
#77=EDGE_LOOP('',(#132));
#78=EDGE_LOOP('',(#133));
#79=EDGE_LOOP('',(#134));
#80=EDGE_LOOP('',(#135));
#81=EDGE_LOOP('',(#136));
#82=EDGE_LOOP('',(#137));
#83=EDGE_LOOP('',(#138));
#84=EDGE_LOOP('',(#139));
#85=EDGE_LOOP('',(#140));
#86=EDGE_LOOP('',(#141));
#87=EDGE_LOOP('',(#142));
#88=EDGE_LOOP('',(#143));
#89=CIRCLE('',#185,4.99999999999998);
#90=CIRCLE('',#186,5.00000000000001);
#91=CIRCLE('',#191,11.4999999999998);
#92=CIRCLE('',#192,11.4999999999998);
#93=CIRCLE('',#194,11.5);
#94=CIRCLE('',#197,11.4999999999968);
#95=CIRCLE('',#199,11.4999999999969);
#96=CIRCLE('',#201,11.4999999999969);
#97=CIRCLE('',#205,4.);
#98=CIRCLE('',#206,3.2);
#99=CIRCLE('',#208,4.);
#100=VERTEX_POINT('',#284);
#101=VERTEX_POINT('',#286);
#102=VERTEX_POINT('',#292);
#103=VERTEX_POINT('',#294);
#104=VERTEX_POINT('',#297);
#105=VERTEX_POINT('',#301);
#106=VERTEX_POINT('',#304);
#107=VERTEX_POINT('',#307);
#108=VERTEX_POINT('',#312);
#109=VERTEX_POINT('',#314);
#110=VERTEX_POINT('',#317);
#111=EDGE_CURVE('',#100,#100,#89,.T.);
#112=EDGE_CURVE('',#101,#101,#90,.T.);
#113=EDGE_CURVE('',#102,#102,#91,.T.);
#114=EDGE_CURVE('',#103,#103,#92,.T.);
#115=EDGE_CURVE('',#104,#104,#93,.T.);
#116=EDGE_CURVE('',#105,#105,#94,.T.);
#117=EDGE_CURVE('',#106,#106,#95,.T.);
#118=EDGE_CURVE('',#107,#107,#96,.T.);
#119=EDGE_CURVE('',#108,#108,#97,.T.);
#120=EDGE_CURVE('',#109,#109,#98,.T.);
#121=EDGE_CURVE('',#110,#110,#99,.T.);
#122=ORIENTED_EDGE('',*,*,#111,.F.);
#123=ORIENTED_EDGE('',*,*,#112,.T.);
#124=ORIENTED_EDGE('',*,*,#111,.T.);
#125=ORIENTED_EDGE('',*,*,#112,.F.);
#126=ORIENTED_EDGE('',*,*,#113,.F.);
#127=ORIENTED_EDGE('',*,*,#114,.T.);
#128=ORIENTED_EDGE('',*,*,#115,.F.);
#129=ORIENTED_EDGE('',*,*,#113,.T.);
#130=ORIENTED_EDGE('',*,*,#115,.T.);
#131=ORIENTED_EDGE('',*,*,#116,.F.);
#132=ORIENTED_EDGE('',*,*,#117,.F.);
#133=ORIENTED_EDGE('',*,*,#116,.T.);
#134=ORIENTED_EDGE('',*,*,#118,.F.);
#135=ORIENTED_EDGE('',*,*,#117,.T.);
#136=ORIENTED_EDGE('',*,*,#114,.F.);
#137=ORIENTED_EDGE('',*,*,#118,.T.);
#138=ORIENTED_EDGE('',*,*,#119,.T.);
#139=ORIENTED_EDGE('',*,*,#120,.T.);
#140=ORIENTED_EDGE('',*,*,#121,.T.);
#141=ORIENTED_EDGE('',*,*,#119,.F.);
#142=ORIENTED_EDGE('',*,*,#120,.F.);
#143=ORIENTED_EDGE('',*,*,#121,.F.);
#144=CYLINDRICAL_SURFACE('',#184,4.99999999999999);
#145=CYLINDRICAL_SURFACE('',#193,11.4999999999999);
#146=CYLINDRICAL_SURFACE('',#198,11.4999999999968);
#147=CYLINDRICAL_SURFACE('',#202,11.4999999999984);
#148=CYLINDRICAL_SURFACE('',#207,4.);
#149=STYLED_ITEM('',(#380),#166);
#150=STYLED_ITEM('',(#380),#167);
#151=STYLED_ITEM('',(#380),#168);
#152=STYLED_ITEM('',(#379),#36);
#153=STYLED_ITEM('',(#382),#169);
#154=STYLED_ITEM('',(#382),#170);
#155=STYLED_ITEM('',(#382),#171);
#156=STYLED_ITEM('',(#382),#172);
#157=STYLED_ITEM('',(#382),#173);
#158=STYLED_ITEM('',(#382),#174);
#159=STYLED_ITEM('',(#382),#175);
#160=STYLED_ITEM('',(#381),#37);
#161=STYLED_ITEM('',(#381),#176);
#162=STYLED_ITEM('',(#381),#177);
#163=STYLED_ITEM('',(#381),#178);
#164=STYLED_ITEM('',(#381),#179);
#165=STYLED_ITEM('',(#381),#38);
#166=ADVANCED_FACE('',(#53,#45),#144,.T.);
#167=ADVANCED_FACE('',(#54),#39,.T.);
#168=ADVANCED_FACE('',(#55),#40,.T.);
#169=ADVANCED_FACE('',(#56,#46),#28,.F.);
#170=ADVANCED_FACE('',(#57,#47),#145,.T.);
#171=ADVANCED_FACE('',(#58),#41,.T.);
#172=ADVANCED_FACE('',(#59),#42,.T.);
#173=ADVANCED_FACE('',(#60,#48),#146,.T.);
#174=ADVANCED_FACE('',(#61,#49),#29,.F.);
#175=ADVANCED_FACE('',(#62,#50),#147,.T.);
#176=ADVANCED_FACE('',(#63,#51),#27,.T.);
#177=ADVANCED_FACE('',(#64,#52),#148,.T.);
#178=ADVANCED_FACE('',(#65),#43,.T.);
#179=ADVANCED_FACE('',(#66),#44,.T.);
#180=CLOSED_SHELL('',(#166,#167,#168));
#181=CLOSED_SHELL('',(#169,#170,#171,#172,#173,#174,#175));
#182=CLOSED_SHELL('',(#176,#177,#178,#179));
#183=AXIS2_PLACEMENT_3D('placement',#282,#216,#217);
#184=AXIS2_PLACEMENT_3D('',#283,#218,#219);
#185=AXIS2_PLACEMENT_3D('',#285,#220,#221);
#186=AXIS2_PLACEMENT_3D('',#287,#222,#223);
#187=AXIS2_PLACEMENT_3D('',#288,#224,#225);
#188=AXIS2_PLACEMENT_3D('',#289,#226,#227);
#189=AXIS2_PLACEMENT_3D('placement',#290,#228,#229);
#190=AXIS2_PLACEMENT_3D('',#291,#230,#231);
#191=AXIS2_PLACEMENT_3D('',#293,#232,#233);
#192=AXIS2_PLACEMENT_3D('',#295,#234,#235);
#193=AXIS2_PLACEMENT_3D('',#296,#236,#237);
#194=AXIS2_PLACEMENT_3D('',#298,#238,#239);
#195=AXIS2_PLACEMENT_3D('',#299,#240,#241);
#196=AXIS2_PLACEMENT_3D('',#300,#242,#243);
#197=AXIS2_PLACEMENT_3D('',#302,#244,#245);
#198=AXIS2_PLACEMENT_3D('',#303,#246,#247);
#199=AXIS2_PLACEMENT_3D('',#305,#248,#249);
#200=AXIS2_PLACEMENT_3D('',#306,#250,#251);
#201=AXIS2_PLACEMENT_3D('',#308,#252,#253);
#202=AXIS2_PLACEMENT_3D('',#309,#254,#255);
#203=AXIS2_PLACEMENT_3D('placement',#310,#256,#257);
#204=AXIS2_PLACEMENT_3D('',#311,#258,#259);
#205=AXIS2_PLACEMENT_3D('',#313,#260,#261);
#206=AXIS2_PLACEMENT_3D('',#315,#262,#263);
#207=AXIS2_PLACEMENT_3D('',#316,#264,#265);
#208=AXIS2_PLACEMENT_3D('',#318,#266,#267);
#209=AXIS2_PLACEMENT_3D('',#319,#268,#269);
#210=AXIS2_PLACEMENT_3D('',#320,#270,#271);
#211=AXIS2_PLACEMENT_3D('placement',#321,#272,#273);
#212=AXIS2_PLACEMENT_3D('',#322,#274,#275);
#213=AXIS2_PLACEMENT_3D('',#323,#276,#277);
#214=AXIS2_PLACEMENT_3D('',#324,#278,#279);
#215=AXIS2_PLACEMENT_3D('',#325,#280,#281);
#216=DIRECTION('axis',(0.,0.,1.));
#217=DIRECTION('refdir',(1.,0.,0.));
#218=DIRECTION('center_axis',(1.,3.06161699786838E-16,0.));
#219=DIRECTION('ref_axis',(-3.06161699786838E-16,1.,0.));
#220=DIRECTION('center_axis',(1.,3.06161699786838E-16,0.));
#221=DIRECTION('ref_axis',(-3.06161699786838E-16,1.,0.));
#222=DIRECTION('center_axis',(1.,3.06161699786838E-16,0.));
#223=DIRECTION('ref_axis',(-3.06161699786838E-16,1.,0.));
#224=DIRECTION('center_axis',(1.,3.06161699786838E-16,0.));
#225=DIRECTION('ref_axis',(0.,0.,-1.));
#226=DIRECTION('center_axis',(-1.,-3.06161699786838E-16,0.));
#227=DIRECTION('ref_axis',(0.,0.,1.));
#228=DIRECTION('axis',(0.,0.,1.));
#229=DIRECTION('refdir',(1.,0.,0.));
#230=DIRECTION('center_axis',(1.,8.1298370337305E-12,0.));
#231=DIRECTION('ref_axis',(0.,0.,-1.));
#232=DIRECTION('center_axis',(1.,8.1298370337305E-12,0.));
#233=DIRECTION('ref_axis',(-8.12982531536817E-12,1.,0.));
#234=DIRECTION('center_axis',(1.,8.1298370337305E-12,0.));
#235=DIRECTION('ref_axis',(-8.12982531536817E-12,1.,0.));
#236=DIRECTION('center_axis',(1.,8.1298370337305E-12,0.));
#237=DIRECTION('ref_axis',(-8.12982531536817E-12,1.,0.));
#238=DIRECTION('center_axis',(1.,8.1298370337305E-12,0.));
#239=DIRECTION('ref_axis',(-8.12982531536817E-12,1.,0.));
#240=DIRECTION('center_axis',(1.,8.1298370337305E-12,0.));
#241=DIRECTION('ref_axis',(0.,0.,-1.));
#242=DIRECTION('center_axis',(-1.,-8.1298370337305E-12,0.));
#243=DIRECTION('ref_axis',(0.,0.,1.));
#244=DIRECTION('center_axis',(1.,8.1298370337305E-12,0.));
#245=DIRECTION('ref_axis',(-8.12982531536817E-12,1.,0.));
#246=DIRECTION('center_axis',(1.,8.1298370337305E-12,0.));
#247=DIRECTION('ref_axis',(-8.12982531536817E-12,1.,0.));
#248=DIRECTION('center_axis',(1.,8.1298370337305E-12,0.));
#249=DIRECTION('ref_axis',(-8.12982531536817E-12,1.,0.));
#250=DIRECTION('center_axis',(1.,8.1298370337305E-12,0.));
#251=DIRECTION('ref_axis',(0.,0.,-1.));
#252=DIRECTION('center_axis',(1.,8.1298370337305E-12,0.));
#253=DIRECTION('ref_axis',(-8.12982531536817E-12,1.,0.));
#254=DIRECTION('center_axis',(1.,8.1298370337305E-12,0.));
#255=DIRECTION('ref_axis',(-8.12982531536817E-12,1.,0.));
#256=DIRECTION('axis',(0.,0.,1.));
#257=DIRECTION('refdir',(1.,0.,0.));
#258=DIRECTION('center_axis',(-1.,-2.66800423566524E-16,0.));
#259=DIRECTION('ref_axis',(2.66800423566524E-16,-1.,0.));
#260=DIRECTION('center_axis',(1.,2.66800423566524E-16,0.));
#261=DIRECTION('ref_axis',(2.66800423566524E-16,-1.,0.));
#262=DIRECTION('center_axis',(-1.,-2.66800423566524E-16,0.));
#263=DIRECTION('ref_axis',(2.66800423566524E-16,-1.,0.));
#264=DIRECTION('center_axis',(1.,2.66800423566524E-16,0.));
#265=DIRECTION('ref_axis',(-2.66800423566524E-16,1.,0.));
#266=DIRECTION('center_axis',(1.,2.66800423566524E-16,0.));
#267=DIRECTION('ref_axis',(-2.66800423566524E-16,1.,0.));
#268=DIRECTION('center_axis',(1.,2.66800423566524E-16,0.));
#269=DIRECTION('ref_axis',(0.,0.,-1.));
#270=DIRECTION('center_axis',(-1.,-2.66800423566524E-16,0.));
#271=DIRECTION('ref_axis',(0.,0.,1.));
#272=DIRECTION('axis',(0.,0.,1.));
#273=DIRECTION('refdir',(1.,0.,0.));
#274=DIRECTION('',(0.731346272538096,-0.682006326689594,-2.22380323299144E-11));
#275=DIRECTION('',(-1.73100256699275E-16,3.26065974220913E-11,-1.));
#276=DIRECTION('',(1.,4.0761836447102E-11,6.85228841547894E-17));
#277=DIRECTION('',(6.8521886429899E-17,2.44769366977007E-11,-1.));
#278=DIRECTION('',(-0.989604445299802,0.143815999954355,4.68745375659455E-12));
#279=DIRECTION('',(-1.90916104003447E-15,-3.26065463671281E-11,1.));
#280=DIRECTION('',(1.,6.52134740202021E-11,-7.10686705316928E-16));
#281=DIRECTION('',(-7.10688831683424E-16,3.26062447709222E-11,-1.));
#282=CARTESIAN_POINT('',(0.,0.,0.));
#283=CARTESIAN_POINT('Origin',(60.,1.83697019872103E-14,0.));
#284=CARTESIAN_POINT('',(120.,5.00000000000002,0.));
#285=CARTESIAN_POINT('Origin',(120.,3.67394039744206E-14,0.));
#286=CARTESIAN_POINT('',(0.,5.00000000000001,0.));
#287=CARTESIAN_POINT('Origin',(1.53080849893419E-15,4.68674932081831E-31,
0.));
#288=CARTESIAN_POINT('Origin',(120.,2.50000000000003,0.));
#289=CARTESIAN_POINT('Origin',(0.,2.5,0.));
#290=CARTESIAN_POINT('',(0.,0.,0.));
#291=CARTESIAN_POINT('Origin',(157.5,1.28044908009883E-9,0.));
#292=CARTESIAN_POINT('',(158.749999999906,11.5000000012904,0.));
#293=CARTESIAN_POINT('Origin',(158.75,1.29061162910471E-9,0.));
#294=CARTESIAN_POINT('',(156.249999999906,11.5000000012701,0.));
#295=CARTESIAN_POINT('Origin',(156.25,1.27028703652039E-9,0.));
#296=CARTESIAN_POINT('Origin',(161.875,1.31601736983512E-9,0.));
#297=CARTESIAN_POINT('',(164.999999999906,11.5000000013414,0.));
#298=CARTESIAN_POINT('Origin',(165.,1.34142311056553E-9,0.));
#299=CARTESIAN_POINT('Origin',(164.999999999953,5.7500000013414,0.));
#300=CARTESIAN_POINT('Origin',(-4.68602934233786E-11,5.74999999999838,0.));
#301=CARTESIAN_POINT('',(-9.37205868467572E-11,11.4999999999968,0.));
#302=CARTESIAN_POINT('Origin',(-2.27595720048157E-13,-1.84984726830706E-24,
0.));
#303=CARTESIAN_POINT('Origin',(3.12499999999978,2.5405740730406E-11,0.));
#304=CARTESIAN_POINT('',(6.24999999990629,11.5000000000477,0.));
#305=CARTESIAN_POINT('Origin',(6.24999999999978,5.08114814608138E-11,0.));
#306=CARTESIAN_POINT('Origin',(7.49999999999971,6.09734485124136E-11,0.));
#307=CARTESIAN_POINT('',(8.74999999990629,11.5000000000681,0.));
#308=CARTESIAN_POINT('Origin',(8.74999999999978,7.11360740451401E-11,0.));
#309=CARTESIAN_POINT('Origin',(82.4999999999998,6.70711555282764E-10,0.));
#310=CARTESIAN_POINT('',(0.,0.,0.));
#311=CARTESIAN_POINT('Origin',(9.6,2.56128406623863E-15,0.));
#312=CARTESIAN_POINT('',(9.2,4.,4.89858719658941E-16));
#313=CARTESIAN_POINT('Origin',(9.2,2.45456389681202E-15,0.));
#314=CARTESIAN_POINT('',(10.,3.2,-3.91886975727153E-16));
#315=CARTESIAN_POINT('Origin',(10.,2.66800423566524E-15,0.));
#316=CARTESIAN_POINT('Origin',(5.,1.33400211783262E-15,0.));
#317=CARTESIAN_POINT('',(0.,4.,0.));
#318=CARTESIAN_POINT('Origin',(1.11022302462516E-15,4.93038065763132E-31,
0.));
#319=CARTESIAN_POINT('Origin',(10.,2.,0.));
#320=CARTESIAN_POINT('Origin',(0.,2.,0.));
#321=CARTESIAN_POINT('',(0.,0.,0.));
#322=CARTESIAN_POINT('',(2040.02768973913,-370.941615774203,1227.69756996094));
#323=CARTESIAN_POINT('',(2040.02768973913,-370.94161577029,1107.69756996094));
#324=CARTESIAN_POINT('',(2040.02768973913,-370.941615774203,1227.69756996094));
#325=CARTESIAN_POINT('',(2040.02768973913,-370.94161576491,942.697569960935));
#326=UNCERTAINTY_MEASURE_WITH_UNIT(LENGTH_MEASURE(0.01),#336,
'DISTANCE_ACCURACY_VALUE',
'Maximum model space distance between geometric entities at asserted c
onnectivities');
#327=UNCERTAINTY_MEASURE_WITH_UNIT(LENGTH_MEASURE(0.01),#336,
'DISTANCE_ACCURACY_VALUE',
'Maximum model space distance between geometric entities at asserted c
onnectivities');
#328=UNCERTAINTY_MEASURE_WITH_UNIT(LENGTH_MEASURE(0.01),#336,
'DISTANCE_ACCURACY_VALUE',
'Maximum model space distance between geometric entities at asserted c
onnectivities');
#329=UNCERTAINTY_MEASURE_WITH_UNIT(LENGTH_MEASURE(0.01),#336,
'DISTANCE_ACCURACY_VALUE',
'Maximum model space distance between geometric entities at asserted c
onnectivities');
#330=UNCERTAINTY_MEASURE_WITH_UNIT(LENGTH_MEASURE(1.E-6),#336,
'DISTANCE_ACCURACY_VALUE',
'Maximum model space distance between geometric entities at asserted c
onnectivities');
#331=(
GEOMETRIC_REPRESENTATION_CONTEXT(3)
GLOBAL_UNCERTAINTY_ASSIGNED_CONTEXT((#326))
GLOBAL_UNIT_ASSIGNED_CONTEXT((#336,#339,#337))
REPRESENTATION_CONTEXT('','3D')
);
#332=(
GEOMETRIC_REPRESENTATION_CONTEXT(3)
GLOBAL_UNCERTAINTY_ASSIGNED_CONTEXT((#327))
GLOBAL_UNIT_ASSIGNED_CONTEXT((#336,#339,#337))
REPRESENTATION_CONTEXT('','3D')
);
#333=(
GEOMETRIC_REPRESENTATION_CONTEXT(3)
GLOBAL_UNCERTAINTY_ASSIGNED_CONTEXT((#328))
GLOBAL_UNIT_ASSIGNED_CONTEXT((#336,#339,#337))
REPRESENTATION_CONTEXT('','3D')
);
#334=(
GEOMETRIC_REPRESENTATION_CONTEXT(3)
GLOBAL_UNCERTAINTY_ASSIGNED_CONTEXT((#329))
GLOBAL_UNIT_ASSIGNED_CONTEXT((#336,#339,#337))
REPRESENTATION_CONTEXT('','3D')
);
#335=(
GEOMETRIC_REPRESENTATION_CONTEXT(3)
GLOBAL_UNCERTAINTY_ASSIGNED_CONTEXT((#330))
GLOBAL_UNIT_ASSIGNED_CONTEXT((#336,#339,#337))
REPRESENTATION_CONTEXT('','3D')
);
#336=(
LENGTH_UNIT()
NAMED_UNIT(*)
SI_UNIT(.MILLI.,.METRE.)
);
#337=(
NAMED_UNIT(*)
SI_UNIT($,.STERADIAN.)
SOLID_ANGLE_UNIT()
);
#338=DIMENSIONAL_EXPONENTS(0.,0.,0.,0.,0.,0.,0.);
#339=(
CONVERSION_BASED_UNIT('degree',#341)
NAMED_UNIT(#338)
PLANE_ANGLE_UNIT()
);
#340=(
NAMED_UNIT(*)
PLANE_ANGLE_UNIT()
SI_UNIT($,.RADIAN.)
);
#341=PLANE_ANGLE_MEASURE_WITH_UNIT(PLANE_ANGLE_MEASURE(0.01745329252),#340);
#342=SHAPE_DEFINITION_REPRESENTATION(#346,#354);
#343=SHAPE_DEFINITION_REPRESENTATION(#347,#355);
#344=SHAPE_DEFINITION_REPRESENTATION(#348,#356);
#345=SHAPE_DEFINITION_REPRESENTATION(#349,#357);
#346=PRODUCT_DEFINITION_SHAPE('',$,#359);
#347=PRODUCT_DEFINITION_SHAPE('',$,#360);
#348=PRODUCT_DEFINITION_SHAPE('',$,#361);
#349=PRODUCT_DEFINITION_SHAPE('',$,#362);
#350=PRODUCT_DEFINITION_SHAPE($,$,#23);
#351=PRODUCT_DEFINITION_SHAPE($,$,#24);
#352=PRODUCT_DEFINITION_SHAPE($,$,#25);
#353=PRODUCT_DEFINITION_SHAPE($,$,#26);
#354=SHAPE_REPRESENTATION('',(#183),#331);
#355=SHAPE_REPRESENTATION('',(#189),#332);
#356=SHAPE_REPRESENTATION('',(#203),#333);
#357=SHAPE_REPRESENTATION('',(#211,#212,#213,#214,#215),#334);
#358=PRODUCT_DEFINITION_CONTEXT('part definition',#372,'design');
#359=PRODUCT_DEFINITION('Bauteil1-11','Bauteil1-11',#363,#358);
#360=PRODUCT_DEFINITION(
'ROH_-S-00079-EM [Category [Summary]=V4A][Part Number [Project]=Zylind
er V4A D23]',
'ROH_-S-00079-EM [Category [Summary]=V4A][Part Number [Project]=Zylind
er V4A D23]',#364,#358);
#361=PRODUCT_DEFINITION('Gew-04','Gew-04',#365,#358);
#362=PRODUCT_DEFINITION('G__-S-00001-BM','G__-S-00001-BM',#366,#358);
#363=PRODUCT_DEFINITION_FORMATION('',$,#374);
#364=PRODUCT_DEFINITION_FORMATION('',$,#375);
#365=PRODUCT_DEFINITION_FORMATION('',$,#376);
#366=PRODUCT_DEFINITION_FORMATION('',$,#377);
#367=PRODUCT_RELATED_PRODUCT_CATEGORY('Bauteil1-11','Bauteil1-11',(#374));
#368=PRODUCT_RELATED_PRODUCT_CATEGORY(
'ROH_-S-00079-EM [Category [Summary]=V4A][Part Number [Project]=Zylind
er V4A D23]',
'ROH_-S-00079-EM [Category [Summary]=V4A][Part Number [Project]=Zylind
er V4A D23]',(#375));
#369=PRODUCT_RELATED_PRODUCT_CATEGORY('Gew-04','Gew-04',(#376));
#370=PRODUCT_RELATED_PRODUCT_CATEGORY('G__-S-00001-BM','G__-S-00001-BM',
(#377));
#371=APPLICATION_PROTOCOL_DEFINITION('international standard',
'automotive_design',2009,#372);
#372=APPLICATION_CONTEXT(
'Core Data for Automotive Mechanical Design Process');
#373=PRODUCT_CONTEXT('part definition',#372,'mechanical');
#374=PRODUCT('Bauteil1-11','Bauteil1-11',$,(#373));
#375=PRODUCT(
'ROH_-S-00079-EM [Category [Summary]=V4A][Part Number [Project]=Zylind
er V4A D23]',
'ROH_-S-00079-EM [Category [Summary]=V4A][Part Number [Project]=Zylind
er V4A D23]',$,(#373));
#376=PRODUCT('Gew-04','Gew-04',$,(#373));
#377=PRODUCT('G__-S-00001-BM','G__-S-00001-BM',$,(#373));
#378=PRESENTATION_STYLE_ASSIGNMENT((#383));
#379=PRESENTATION_STYLE_ASSIGNMENT((#384));
#380=PRESENTATION_STYLE_ASSIGNMENT((#385));
#381=PRESENTATION_STYLE_ASSIGNMENT((#386));
#382=PRESENTATION_STYLE_ASSIGNMENT((#387));
#383=SURFACE_STYLE_USAGE(.BOTH.,#388);
#384=SURFACE_STYLE_USAGE(.BOTH.,#389);
#385=SURFACE_STYLE_USAGE(.BOTH.,#390);
#386=SURFACE_STYLE_USAGE(.BOTH.,#391);
#387=SURFACE_STYLE_USAGE(.BOTH.,#392);
#388=SURFACE_SIDE_STYLE('',(#393));
#389=SURFACE_SIDE_STYLE('',(#394));
#390=SURFACE_SIDE_STYLE('',(#395));
#391=SURFACE_SIDE_STYLE('',(#396));
#392=SURFACE_SIDE_STYLE('',(#397));
#393=SURFACE_STYLE_FILL_AREA(#398);
#394=SURFACE_STYLE_FILL_AREA(#399);
#395=SURFACE_STYLE_FILL_AREA(#400);
#396=SURFACE_STYLE_FILL_AREA(#401);
#397=SURFACE_STYLE_FILL_AREA(#402);
#398=FILL_AREA_STYLE('',(#403));
#399=FILL_AREA_STYLE('',(#404));
#400=FILL_AREA_STYLE('',(#405));
#401=FILL_AREA_STYLE('',(#406));
#402=FILL_AREA_STYLE('',(#407));
#403=FILL_AREA_STYLE_COLOUR('',#408);
#404=FILL_AREA_STYLE_COLOUR('',#409);
#405=FILL_AREA_STYLE_COLOUR('',#410);
#406=FILL_AREA_STYLE_COLOUR('',#411);
#407=FILL_AREA_STYLE_COLOUR('',#412);
#408=COLOUR_RGB('',0.784313725490196,0.784313725490196,0.792156862745098);
#409=COLOUR_RGB('',0.749019607843137,0.749019607843137,0.749019607843137);
#410=COLOUR_RGB('',0.752941176470588,0.752941176470588,0.752941176470588);
#411=COLOUR_RGB('',0.87843137254902,0.874509803921569,0.858823529411765);
#412=COLOUR_RGB('',0.63921568627451,0.63921568627451,0.686274509803922);
ENDSEC;
END-ISO-10303-21;
